ISO-10303-21;
HEADER;
/* Generated by software containing ST-Developer
 * from STEP Tools, Inc. (www.steptools.com) 
 */
/* OPTION: using custom renumber hook */

FILE_DESCRIPTION(
/* description */ ('STEP AP242',
'CAx-IF Rec.Pracs.---Representation and Presentation of Product Manufa
cturing Information (PMI)---4.0---2014-10-13',
'CAx-IF Rec.Pracs.---3D Tessellated Geometry---0.4---2014-09-14','2;1'),

/* implementation_level */ '2;1');

FILE_NAME(
/* name */ '681f75e188f8237c677e7adc',
/* time_stamp */ '2025-05-10T15:50:58Z',
/* author */ (''),
/* organization */ (''),
/* preprocessor_version */ 'ST-DEVELOPER v20',
/* originating_system */ 'ONSHAPE BY PTC INC, 1.197',
/* authorisation */ '  ');

FILE_SCHEMA (('AP242_MANAGED_MODEL_BASED_3D_ENGINEERING_MIM_LF { 1 0 10303 442 1 1 4 }'));
ENDSEC;

DATA;
#10=SHAPE_REPRESENTATION_RELATIONSHIP('','',#249,#11);
#11=ADVANCED_BREP_SHAPE_REPRESENTATION('',(#247),#399);
#12=CYLINDRICAL_SURFACE('',#263,0.006);
#13=CYLINDRICAL_SURFACE('',#266,0.008);
#14=CIRCLE('',#262,0.008);
#15=CIRCLE('',#264,0.006);
#16=CIRCLE('',#265,0.006);
#17=CIRCLE('',#267,0.008);
#18=ORIENTED_EDGE('',*,*,#74,.F.);
#19=ORIENTED_EDGE('',*,*,#75,.F.);
#20=ORIENTED_EDGE('',*,*,#76,.T.);
#21=ORIENTED_EDGE('',*,*,#77,.T.);
#22=ORIENTED_EDGE('',*,*,#78,.F.);
#23=ORIENTED_EDGE('',*,*,#79,.F.);
#24=ORIENTED_EDGE('',*,*,#80,.T.);
#25=ORIENTED_EDGE('',*,*,#75,.T.);
#26=ORIENTED_EDGE('',*,*,#81,.F.);
#27=ORIENTED_EDGE('',*,*,#82,.F.);
#28=ORIENTED_EDGE('',*,*,#83,.T.);
#29=ORIENTED_EDGE('',*,*,#79,.T.);
#30=ORIENTED_EDGE('',*,*,#84,.F.);
#31=ORIENTED_EDGE('',*,*,#77,.F.);
#32=ORIENTED_EDGE('',*,*,#85,.T.);
#33=ORIENTED_EDGE('',*,*,#82,.T.);
#34=ORIENTED_EDGE('',*,*,#76,.F.);
#35=ORIENTED_EDGE('',*,*,#80,.F.);
#36=ORIENTED_EDGE('',*,*,#83,.F.);
#37=ORIENTED_EDGE('',*,*,#85,.F.);
#38=ORIENTED_EDGE('',*,*,#86,.F.);
#39=ORIENTED_EDGE('',*,*,#87,.T.);
#40=ORIENTED_EDGE('',*,*,#88,.F.);
#41=ORIENTED_EDGE('',*,*,#89,.F.);
#42=ORIENTED_EDGE('',*,*,#74,.T.);
#43=ORIENTED_EDGE('',*,*,#84,.T.);
#44=ORIENTED_EDGE('',*,*,#81,.T.);
#45=ORIENTED_EDGE('',*,*,#78,.T.);
#46=ORIENTED_EDGE('',*,*,#87,.F.);
#47=ORIENTED_EDGE('',*,*,#90,.F.);
#48=ORIENTED_EDGE('',*,*,#91,.T.);
#49=ORIENTED_EDGE('',*,*,#92,.T.);
#50=ORIENTED_EDGE('',*,*,#86,.T.);
#51=ORIENTED_EDGE('',*,*,#93,.F.);
#52=ORIENTED_EDGE('',*,*,#94,.F.);
#53=ORIENTED_EDGE('',*,*,#90,.T.);
#54=ORIENTED_EDGE('',*,*,#89,.T.);
#55=ORIENTED_EDGE('',*,*,#95,.F.);
#56=ORIENTED_EDGE('',*,*,#96,.F.);
#57=ORIENTED_EDGE('',*,*,#93,.T.);
#58=ORIENTED_EDGE('',*,*,#88,.T.);
#59=ORIENTED_EDGE('',*,*,#92,.F.);
#60=ORIENTED_EDGE('',*,*,#97,.F.);
#61=ORIENTED_EDGE('',*,*,#95,.T.);
#62=ORIENTED_EDGE('',*,*,#98,.F.);
#63=ORIENTED_EDGE('',*,*,#91,.F.);
#64=ORIENTED_EDGE('',*,*,#94,.T.);
#65=ORIENTED_EDGE('',*,*,#96,.T.);
#66=ORIENTED_EDGE('',*,*,#97,.T.);
#67=ORIENTED_EDGE('',*,*,#99,.T.);
#68=ORIENTED_EDGE('',*,*,#100,.F.);
#69=ORIENTED_EDGE('',*,*,#101,.F.);
#70=ORIENTED_EDGE('',*,*,#98,.T.);
#71=ORIENTED_EDGE('',*,*,#99,.F.);
#72=ORIENTED_EDGE('',*,*,#101,.T.);
#73=ORIENTED_EDGE('',*,*,#100,.T.);
#74=EDGE_CURVE('',#102,#103,#122,.T.);
#75=EDGE_CURVE('',#104,#102,#123,.T.);
#76=EDGE_CURVE('',#104,#105,#124,.T.);
#77=EDGE_CURVE('',#105,#103,#125,.T.);
#78=EDGE_CURVE('',#106,#102,#126,.T.);
#79=EDGE_CURVE('',#107,#106,#127,.T.);
#80=EDGE_CURVE('',#107,#104,#128,.T.);
#81=EDGE_CURVE('',#108,#106,#129,.T.);
#82=EDGE_CURVE('',#109,#108,#130,.T.);
#83=EDGE_CURVE('',#109,#107,#131,.T.);
#84=EDGE_CURVE('',#103,#108,#132,.T.);
#85=EDGE_CURVE('',#105,#109,#133,.T.);
#86=EDGE_CURVE('',#110,#111,#134,.T.);
#87=EDGE_CURVE('',#110,#112,#135,.T.);
#88=EDGE_CURVE('',#113,#112,#136,.T.);
#89=EDGE_CURVE('',#111,#113,#137,.T.);
#90=EDGE_CURVE('',#114,#110,#138,.T.);
#91=EDGE_CURVE('',#114,#115,#139,.T.);
#92=EDGE_CURVE('',#115,#112,#140,.T.);
#93=EDGE_CURVE('',#116,#111,#141,.T.);
#94=EDGE_CURVE('',#114,#116,#142,.T.);
#95=EDGE_CURVE('',#117,#113,#143,.T.);
#96=EDGE_CURVE('',#116,#117,#144,.T.);
#97=EDGE_CURVE('',#117,#115,#145,.T.);
#98=EDGE_CURVE('',#118,#118,#14,.T.);
#99=EDGE_CURVE('',#119,#119,#15,.T.);
#100=EDGE_CURVE('',#120,#120,#16,.T.);
#101=EDGE_CURVE('',#121,#121,#17,.T.);
#102=VERTEX_POINT('',#337);
#103=VERTEX_POINT('',#338);
#104=VERTEX_POINT('',#340);
#105=VERTEX_POINT('',#342);
#106=VERTEX_POINT('',#346);
#107=VERTEX_POINT('',#348);
#108=VERTEX_POINT('',#352);
#109=VERTEX_POINT('',#354);
#110=VERTEX_POINT('',#362);
#111=VERTEX_POINT('',#363);
#112=VERTEX_POINT('',#365);
#113=VERTEX_POINT('',#367);
#114=VERTEX_POINT('',#371);
#115=VERTEX_POINT('',#373);
#116=VERTEX_POINT('',#377);
#117=VERTEX_POINT('',#381);
#118=VERTEX_POINT('',#387);
#119=VERTEX_POINT('',#390);
#120=VERTEX_POINT('',#392);
#121=VERTEX_POINT('',#395);
#122=LINE('',#336,#146);
#123=LINE('',#339,#147);
#124=LINE('',#341,#148);
#125=LINE('',#343,#149);
#126=LINE('',#345,#150);
#127=LINE('',#347,#151);
#128=LINE('',#349,#152);
#129=LINE('',#351,#153);
#130=LINE('',#353,#154);
#131=LINE('',#355,#155);
#132=LINE('',#357,#156);
#133=LINE('',#358,#157);
#134=LINE('',#361,#158);
#135=LINE('',#364,#159);
#136=LINE('',#366,#160);
#137=LINE('',#368,#161);
#138=LINE('',#370,#162);
#139=LINE('',#372,#163);
#140=LINE('',#374,#164);
#141=LINE('',#376,#165);
#142=LINE('',#378,#166);
#143=LINE('',#380,#167);
#144=LINE('',#382,#168);
#145=LINE('',#384,#169);
#146=VECTOR('',#274,1.);
#147=VECTOR('',#275,1.);
#148=VECTOR('',#276,1.);
#149=VECTOR('',#277,1.);
#150=VECTOR('',#280,1.);
#151=VECTOR('',#281,1.);
#152=VECTOR('',#282,1.);
#153=VECTOR('',#285,1.);
#154=VECTOR('',#286,1.);
#155=VECTOR('',#287,1.);
#156=VECTOR('',#290,1.);
#157=VECTOR('',#291,1.);
#158=VECTOR('',#296,1.);
#159=VECTOR('',#297,1.);
#160=VECTOR('',#298,1.);
#161=VECTOR('',#299,1.);
#162=VECTOR('',#302,1.);
#163=VECTOR('',#303,1.);
#164=VECTOR('',#304,1.);
#165=VECTOR('',#307,1.);
#166=VECTOR('',#308,1.);
#167=VECTOR('',#311,1.);
#168=VECTOR('',#312,1.);
#169=VECTOR('',#315,1.);
#170=EDGE_LOOP('',(#18,#19,#20,#21));
#171=EDGE_LOOP('',(#22,#23,#24,#25));
#172=EDGE_LOOP('',(#26,#27,#28,#29));
#173=EDGE_LOOP('',(#30,#31,#32,#33));
#174=EDGE_LOOP('',(#34,#35,#36,#37));
#175=EDGE_LOOP('',(#38,#39,#40,#41));
#176=EDGE_LOOP('',(#42,#43,#44,#45));
#177=EDGE_LOOP('',(#46,#47,#48,#49));
#178=EDGE_LOOP('',(#50,#51,#52,#53));
#179=EDGE_LOOP('',(#54,#55,#56,#57));
#180=EDGE_LOOP('',(#58,#59,#60,#61));
#181=EDGE_LOOP('',(#62));
#182=EDGE_LOOP('',(#63,#64,#65,#66));
#183=EDGE_LOOP('',(#67));
#184=EDGE_LOOP('',(#68));
#185=EDGE_LOOP('',(#69));
#186=EDGE_LOOP('',(#70));
#187=EDGE_LOOP('',(#71));
#188=EDGE_LOOP('',(#72));
#189=EDGE_LOOP('',(#73));
#190=FACE_BOUND('',#170,.T.);
#191=FACE_BOUND('',#171,.T.);
#192=FACE_BOUND('',#172,.T.);
#193=FACE_BOUND('',#173,.T.);
#194=FACE_BOUND('',#174,.T.);
#195=FACE_BOUND('',#175,.T.);
#196=FACE_BOUND('',#176,.T.);
#197=FACE_BOUND('',#177,.T.);
#198=FACE_BOUND('',#178,.T.);
#199=FACE_BOUND('',#179,.T.);
#200=FACE_BOUND('',#180,.T.);
#201=FACE_BOUND('',#181,.T.);
#202=FACE_BOUND('',#182,.T.);
#203=FACE_BOUND('',#183,.T.);
#204=FACE_BOUND('',#184,.T.);
#205=FACE_BOUND('',#185,.T.);
#206=FACE_BOUND('',#186,.T.);
#207=FACE_BOUND('',#187,.T.);
#208=FACE_BOUND('',#188,.T.);
#209=FACE_BOUND('',#189,.T.);
#210=PLANE('',#251);
#211=PLANE('',#252);
#212=PLANE('',#253);
#213=PLANE('',#254);
#214=PLANE('',#255);
#215=PLANE('',#256);
#216=PLANE('',#257);
#217=PLANE('',#258);
#218=PLANE('',#259);
#219=PLANE('',#260);
#220=PLANE('',#261);
#221=PLANE('',#268);
#222=PLANE('',#269);
#223=ADVANCED_FACE('',(#190),#210,.T.);
#224=ADVANCED_FACE('',(#191),#211,.T.);
#225=ADVANCED_FACE('',(#192),#212,.T.);
#226=ADVANCED_FACE('',(#193),#213,.T.);
#227=ADVANCED_FACE('',(#194),#214,.T.);
#228=ADVANCED_FACE('',(#195,#196),#215,.F.);
#229=ADVANCED_FACE('',(#197),#216,.T.);
#230=ADVANCED_FACE('',(#198),#217,.F.);
#231=ADVANCED_FACE('',(#199),#218,.F.);
#232=ADVANCED_FACE('',(#200),#219,.F.);
#233=ADVANCED_FACE('',(#201,#202),#220,.T.);
#234=ADVANCED_FACE('',(#203,#204),#12,.F.);
#235=ADVANCED_FACE('',(#205,#206),#13,.T.);
#236=ADVANCED_FACE('',(#207,#208),#221,.T.);
#237=ADVANCED_FACE('',(#209),#222,.T.);
#238=CLOSED_SHELL('',(#223,#224,#225,#226,#227,#228,#229,#230,#231,#232,
#233,#234,#235,#236,#237));
#239=STYLED_ITEM('',(#240),#247);
#240=PRESENTATION_STYLE_ASSIGNMENT((#241));
#241=SURFACE_STYLE_USAGE(.BOTH.,#242);
#242=SURFACE_SIDE_STYLE('',(#243));
#243=SURFACE_STYLE_FILL_AREA(#244);
#244=FILL_AREA_STYLE('',(#245));
#245=FILL_AREA_STYLE_COLOUR('',#246);
#246=DRAUGHTING_PRE_DEFINED_COLOUR('white');
#247=MANIFOLD_SOLID_BREP('piece 1',#238);
#248=SHAPE_DEFINITION_REPRESENTATION(#404,#249);
#249=SHAPE_REPRESENTATION('piece 1',(#250),#399);
#250=AXIS2_PLACEMENT_3D('',#334,#270,#271);
#251=AXIS2_PLACEMENT_3D('',#335,#272,#273);
#252=AXIS2_PLACEMENT_3D('',#344,#278,#279);
#253=AXIS2_PLACEMENT_3D('',#350,#283,#284);
#254=AXIS2_PLACEMENT_3D('',#356,#288,#289);
#255=AXIS2_PLACEMENT_3D('',#359,#292,#293);
#256=AXIS2_PLACEMENT_3D('',#360,#294,#295);
#257=AXIS2_PLACEMENT_3D('',#369,#300,#301);
#258=AXIS2_PLACEMENT_3D('',#375,#305,#306);
#259=AXIS2_PLACEMENT_3D('',#379,#309,#310);
#260=AXIS2_PLACEMENT_3D('',#383,#313,#314);
#261=AXIS2_PLACEMENT_3D('',#385,#316,#317);
#262=AXIS2_PLACEMENT_3D('',#386,#318,#319);
#263=AXIS2_PLACEMENT_3D('',#388,#320,#321);
#264=AXIS2_PLACEMENT_3D('',#389,#322,#323);
#265=AXIS2_PLACEMENT_3D('',#391,#324,#325);
#266=AXIS2_PLACEMENT_3D('',#393,#326,#327);
#267=AXIS2_PLACEMENT_3D('',#394,#328,#329);
#268=AXIS2_PLACEMENT_3D('',#396,#330,#331);
#269=AXIS2_PLACEMENT_3D('',#397,#332,#333);
#270=DIRECTION('',(0.,0.,1.));
#271=DIRECTION('',(1.,0.,0.));
#272=DIRECTION('',(0.0101813021007408,0.997893606423364,0.0640678651658226));
#273=DIRECTION('',(0.,-0.064071186026616,0.997945330727662));
#274=DIRECTION('',(0.15661437610309,-0.0648717986445002,0.98552706048006));
#275=DIRECTION('',(0.987607350258883,-3.48032698179364E-16,-0.156944963967076));
#276=DIRECTION('',(0.15661437610309,-0.0648717986445002,0.98552706048006));
#277=DIRECTION('',(0.987607350258883,-3.48032698179364E-16,-0.156944963967076));
#278=DIRECTION('',(-0.156944963967076,-1.36231609926181E-18,-0.987607350258883));
#279=DIRECTION('',(-0.987607350258884,0.,0.156944963967076));
#280=DIRECTION('',(3.43505842201261E-16,1.,-5.59674126681314E-17));
#281=DIRECTION('',(0.987607350258883,-3.48032698179364E-16,-0.156944963967076));
#282=DIRECTION('',(3.43505842201261E-16,1.,-5.59674126681314E-17));
#283=DIRECTION('',(0.0101813021007402,-0.997893606423364,0.0640678651658229));
#284=DIRECTION('',(0.,-0.0640711860266164,-0.997945330727662));
#285=DIRECTION('',(-0.156614376103091,-0.0648717986445004,-0.98552706048006));
#286=DIRECTION('',(0.987607350258883,-3.48032698179364E-16,-0.156944963967076));
#287=DIRECTION('',(-0.156614376103091,-0.0648717986445004,-0.98552706048006));
#288=DIRECTION('',(0.156944963967076,-5.53073843170631E-17,0.987607350258883));
#289=DIRECTION('',(0.987607350258884,0.,-0.156944963967076));
#290=DIRECTION('',(-3.52399866291126E-16,-1.,7.73798414655916E-33));
#291=DIRECTION('',(-3.52399866291126E-16,-1.,7.73798414655916E-33));
#292=DIRECTION('',(-0.987607350258884,3.48032698179364E-16,0.156944963967076));
#293=DIRECTION('',(-3.43719650852371E-16,-1.,5.46219792751244E-17));
#294=DIRECTION('',(-0.987607350258884,3.48032698179364E-16,0.156944963967076));
#295=DIRECTION('',(-3.43719650852371E-16,-1.,5.46219792751244E-17));
#296=DIRECTION('',(-0.156614376103091,-0.0648717986445003,-0.98552706048006));
#297=DIRECTION('',(3.38392369857329E-16,1.,-8.81449527723938E-17));
#298=DIRECTION('',(0.15661437610309,-0.0648717986444998,0.98552706048006));
#299=DIRECTION('',(3.61337157419219E-16,1.,5.62396790976968E-17));
#300=DIRECTION('',(0.156944963967076,3.39436249522463E-17,0.987607350258884));
#301=DIRECTION('',(0.987607350258884,0.,-0.156944963967076));
#302=DIRECTION('',(-0.987607350258884,3.48032698179364E-16,0.156944963967076));
#303=DIRECTION('',(3.38392369857329E-16,1.,-8.81449527723938E-17));
#304=DIRECTION('',(-0.987607350258884,3.48032698179364E-16,0.156944963967076));
#305=DIRECTION('',(-0.0101813021007401,0.997893606423364,-0.0640678651658228));
#306=DIRECTION('',(0.,0.0640711860266162,0.997945330727662));
#307=DIRECTION('',(-0.987607350258884,3.48032698179364E-16,0.156944963967076));
#308=DIRECTION('',(-0.156614376103091,-0.0648717986445003,-0.98552706048006));
#309=DIRECTION('',(0.156944963967076,-1.12252767604211E-16,0.987607350258884));
#310=DIRECTION('',(0.987607350258884,0.,-0.156944963967076));
#311=DIRECTION('',(-0.987607350258884,3.48032698179364E-16,0.156944963967076));
#312=DIRECTION('',(3.61337157419219E-16,1.,5.62396790976968E-17));
#313=DIRECTION('',(-0.0101813021007408,-0.997893606423364,-0.0640678651658222));
#314=DIRECTION('',(0.,0.0640711860266156,-0.997945330727662));
#315=DIRECTION('',(0.15661437610309,-0.0648717986444998,0.98552706048006));
#316=DIRECTION('',(0.987607350258884,-3.48032698179364E-16,-0.156944963967076));
#317=DIRECTION('',(3.43719650852371E-16,1.,-5.46219792751244E-17));
#318=DIRECTION('',(0.987607350258884,-3.48032698179364E-16,-0.156944963967076));
#319=DIRECTION('',(-0.156944963967076,0.,-0.987607350258884));
#320=DIRECTION('',(-0.987607350258884,3.48032698179364E-16,0.156944963967076));
#321=DIRECTION('',(0.156944963967076,0.,0.987607350258884));
#322=DIRECTION('',(0.987607350258884,-3.48032698179364E-16,-0.156944963967076));
#323=DIRECTION('',(-0.156944963967076,0.,-0.987607350258884));
#324=DIRECTION('',(0.987607350258884,-3.48032698179364E-16,-0.156944963967076));
#325=DIRECTION('',(-0.156944963967076,0.,-0.987607350258884));
#326=DIRECTION('',(-0.987607350258884,3.48032698179364E-16,0.156944963967076));
#327=DIRECTION('',(0.156944963967076,0.,0.987607350258884));
#328=DIRECTION('',(0.987607350258884,-3.48032698179364E-16,-0.156944963967076));
#329=DIRECTION('',(-0.156944963967076,0.,-0.987607350258884));
#330=DIRECTION('',(0.987607350258884,-3.48032698179364E-16,-0.156944963967076));
#331=DIRECTION('',(3.43719650852371E-16,1.,-5.46219792751244E-17));
#332=DIRECTION('',(0.987607350258884,-3.48032698179364E-16,-0.156944963967076));
#333=DIRECTION('',(3.43719650852371E-16,1.,-5.46219792751244E-17));
#334=CARTESIAN_POINT('',(0.,0.,0.));
#335=CARTESIAN_POINT('',(-0.0990182388539257,0.0404010769174297,0.0157354174459506));
#336=CARTESIAN_POINT('',(-0.0975368278285373,0.0404010769174297,0.0155));
#337=CARTESIAN_POINT('',(-0.1,0.0414213562373096,7.31985071037574E-19));
#338=CARTESIAN_POINT('',(-0.0950736556570747,0.0393807975975499,0.031));
#339=CARTESIAN_POINT('',(-0.101481411025388,0.0414213562373096,0.000235417445950615));
#340=CARTESIAN_POINT('',(-0.101481411025388,0.0414213562373096,0.000235417445950615));
#341=CARTESIAN_POINT('',(-0.0990182388539257,0.0404010769174297,0.0157354174459506));
#342=CARTESIAN_POINT('',(-0.096555066682463,0.0393807975975499,0.0312354174459506));
#343=CARTESIAN_POINT('',(-0.096555066682463,0.0393807975975499,0.0312354174459506));
#344=CARTESIAN_POINT('',(-0.101481411025388,1.43998368550835E-17,0.000235417445950613));
#345=CARTESIAN_POINT('',(-0.1,1.38777878078145E-17,-1.53053139090429E-18));
#346=CARTESIAN_POINT('',(-0.1,-0.0414213562373095,7.31985071037574E-19));
#347=CARTESIAN_POINT('',(-0.101481411025388,-0.0414213562373095,0.000235417445950615));
#348=CARTESIAN_POINT('',(-0.101481411025388,-0.0414213562373095,0.000235417445950615));
#349=CARTESIAN_POINT('',(-0.101481411025388,1.43998368550835E-17,0.000235417445950613));
#350=CARTESIAN_POINT('',(-0.0990182388539257,-0.0404010769174296,0.0157354174459506));
#351=CARTESIAN_POINT('',(-0.0975368278285374,-0.0404010769174296,0.0155));
#352=CARTESIAN_POINT('',(-0.0950736556570747,-0.0393807975975499,0.031));
#353=CARTESIAN_POINT('',(-0.096555066682463,-0.0393807975975499,0.0312354174459506));
#354=CARTESIAN_POINT('',(-0.096555066682463,-0.0393807975975499,0.0312354174459506));
#355=CARTESIAN_POINT('',(-0.0990182388539257,-0.0404010769174296,0.0157354174459506));
#356=CARTESIAN_POINT('',(-0.096555066682463,2.13387307589907E-17,0.0312354174459506));
#357=CARTESIAN_POINT('',(-0.0950736556570747,2.08166817117217E-17,0.031));
#358=CARTESIAN_POINT('',(-0.096555066682463,2.13387307589907E-17,0.0312354174459506));
#359=CARTESIAN_POINT('',(-0.0990182388539257,2.79551202285989E-17,0.0157354174459506));
#360=CARTESIAN_POINT('',(-0.0975368278285374,2.74330711813299E-17,0.0155));
#361=CARTESIAN_POINT('',(-0.097565102890709,-0.0376297709014558,0.0153220735567181));
#362=CARTESIAN_POINT('',(-0.0955104363058501,-0.0367787001358524,0.0282514710362299));
#363=CARTESIAN_POINT('',(-0.0996197694755679,-0.0384808416670591,0.00239267607720628));
#364=CARTESIAN_POINT('',(-0.0955104363058501,2.08166817117217E-17,0.0282514710362299));
#365=CARTESIAN_POINT('',(-0.09551043630585,0.0367787001358524,0.0282514710362299));
#366=CARTESIAN_POINT('',(-0.097565102890709,0.0376297709014558,0.0153220735567181));
#367=CARTESIAN_POINT('',(-0.0996197694755679,0.0384808416670592,0.00239267607720608));
#368=CARTESIAN_POINT('',(-0.0996197694755679,1.38777878078145E-17,0.00239267607720629));
#369=CARTESIAN_POINT('',(-0.0890909885291673,1.85544691735558E-17,0.027231328770444));
#370=CARTESIAN_POINT('',(-0.0890909885291673,-0.0367787001358524,0.027231328770444));
#371=CARTESIAN_POINT('',(-0.0890909885291673,-0.0367787001358524,0.027231328770444));
#372=CARTESIAN_POINT('',(-0.0890909885291673,1.85544691735558E-17,0.027231328770444));
#373=CARTESIAN_POINT('',(-0.0890909885291673,0.0367787001358524,0.027231328770444));
#374=CARTESIAN_POINT('',(-0.0890909885291673,0.0367787001358524,0.027231328770444));
#375=CARTESIAN_POINT('',(-0.0911456551140263,-0.0376297709014558,0.0143019312909321));
#376=CARTESIAN_POINT('',(-0.0932003216988852,-0.0384808416670591,0.0013725338114203));
#377=CARTESIAN_POINT('',(-0.0932003216988852,-0.0384808416670591,0.0013725338114203));
#378=CARTESIAN_POINT('',(-0.0911456551140263,-0.0376297709014558,0.0143019312909321));
#379=CARTESIAN_POINT('',(-0.0932003216988852,1.16155752696486E-17,0.0013725338114203));
#380=CARTESIAN_POINT('',(-0.0932003216988851,0.0384808416670592,0.00137253381142029));
#381=CARTESIAN_POINT('',(-0.0932003216988851,0.0384808416670592,0.00137253381142029));
#382=CARTESIAN_POINT('',(-0.0932003216988852,1.16155752696486E-17,0.0013725338114203));
#383=CARTESIAN_POINT('',(-0.0911456551140262,0.0376297709014558,0.0143019312909321));
#384=CARTESIAN_POINT('',(-0.0911456551140262,0.0376297709014558,0.0143019312909321));
#385=CARTESIAN_POINT('',(-0.0911173800518547,2.5170858643164E-17,0.014479857734214));
#386=CARTESIAN_POINT('',(-0.0911173800518547,3.29597460435593E-17,0.014479857734214));
#387=CARTESIAN_POINT('',(-0.0923729397635913,3.29597460435593E-17,0.00657899893214293));
#388=CARTESIAN_POINT('',(-0.0901297727015958,3.17443516073916E-17,0.0143229127702469));
#389=CARTESIAN_POINT('',(-0.0901297727015958,3.17443516073916E-17,0.0143229127702469));
#390=CARTESIAN_POINT('',(-0.0910714424853983,3.17443516073916E-17,0.00839726866869362));
#391=CARTESIAN_POINT('',(-0.0960554168031491,3.38325477964677E-17,0.0152645825540494));
#392=CARTESIAN_POINT('',(-0.0969970865869516,3.38325477964677E-17,0.00933893845249609));
#393=CARTESIAN_POINT('',(-0.0901297727015958,3.261171334538E-17,0.0143229127702469));
#394=CARTESIAN_POINT('',(-0.0901297727015958,3.261171334538E-17,0.0143229127702469));
#395=CARTESIAN_POINT('',(-0.0913853324133324,3.261171334538E-17,0.00642205396817585));
#396=CARTESIAN_POINT('',(-0.0901580477637674,1.09450381371702E-17,0.014144986326965));
#397=CARTESIAN_POINT('',(-0.0960554168031491,3.38499160379681E-17,0.0152645825540494));
#398=MECHANICAL_DESIGN_GEOMETRIC_PRESENTATION_REPRESENTATION('',(#239),
#399);
#399=(
GEOMETRIC_REPRESENTATION_CONTEXT(3)
GLOBAL_UNCERTAINTY_ASSIGNED_CONTEXT((#400))
GLOBAL_UNIT_ASSIGNED_CONTEXT((#403,#402,#401))
REPRESENTATION_CONTEXT('piece 1','TOP_LEVEL_ASSEMBLY_PART')
);
#400=UNCERTAINTY_MEASURE_WITH_UNIT(LENGTH_MEASURE(1.E-8),#403,
'DISTANCE_ACCURACY_VALUE','Maximum Tolerance applied to model');
#401=(
NAMED_UNIT(*)
SI_UNIT($,.STERADIAN.)
SOLID_ANGLE_UNIT()
);
#402=(
NAMED_UNIT(*)
PLANE_ANGLE_UNIT()
SI_UNIT($,.RADIAN.)
);
#403=(
LENGTH_UNIT()
NAMED_UNIT(*)
SI_UNIT($,.METRE.)
);
#404=PRODUCT_DEFINITION_SHAPE('','',#405);
#405=PRODUCT_DEFINITION('','',#407,#406);
#406=PRODUCT_DEFINITION_CONTEXT('',#413,'design');
#407=PRODUCT_DEFINITION_FORMATION_WITH_SPECIFIED_SOURCE('','',#409,
 .NOT_KNOWN.);
#408=PRODUCT_RELATED_PRODUCT_CATEGORY('','',(#409));
#409=PRODUCT('piece 1','piece 1','piece 1',(#411));
#410=PRODUCT_CATEGORY('','');
#411=PRODUCT_CONTEXT('',#413,'mechanical');
#412=APPLICATION_PROTOCOL_DEFINITION('international standard',
'ap242_managed_model_based_3d_engineering',2011,#413);
#413=APPLICATION_CONTEXT('managed model based 3d engineering');
ENDSEC;
END-ISO-10303-21;
